GUITAR TABS FOR

"Monkey Chow"






Monkey Chow

Written by Gilby Clarke
For the Album: It's Five O'Clock Somewhere
           by SLASH's Snakepit


Tabulature by  Stix Taimur
                                (Thanks!)
And another by Brian Feldstein. Thanks!
And another by drummer_bassist@hotmail.comzz Thanks!                                                                        
                                                                        


This is the intro. piece which  works its way into the main riffs.

Intro.
A5
							      
-------------------------------------------------------------------------------------------------------
----5-4--5-4-2-4-5~~~~--5-4--5-4-2-4-5-2~~~--5-4--5-4-2-4-5-8~~~--5-4--5-4-2-4-5-2~~~--
------------------------------------------------------------------------------------------------------------------
------------------------------------------------------------------------------------------------------------------
------------------------------------------------------------------------------------------------------------------
------------------------------------------------------------------------------------------------------------------
*this pattern works extremely quickly with a lot or hammer-ons and pull off techniques.
A5    	        D#5	               D5	A


					           		 
----------5-5--5-5~~-------------------------------------------------------------------------------------------
----------5-5--5-5~~--4-4--4-4~~--3-3--3-3----------------------------------------------------------------
-------------------------3-3--3-3~~--2-2--2-2-------4-2-------------------------------------------------
-------------------------------------------------------------------4--2------2----------------------------------
--(0)-----------------------------------------------(0)------------------3-----0------------------------------
------------------------------------------------------------------------------------------------------------------


Riff 1:
		        
------------5----------------------------5------------------------------------------------------------------------
------------5-------x---75----------5-----------0--1-------------------------------------------------------
------------5-------x---75----------5-----------0--1-------------------------------------------------------
--2--2-------------------------2--2-----------4-----------------------------------------------------------------
--0--0---------0---------------0--0------0---4-----------------------------------------------------------------
------------------------------------------------------------------------------------------------------------------


Click on the ad for Snakepit's Japanese concerts below to return to the SLASH Guitar Tabs Main Menu:

Guitar Tabs Page - Main Menu