GUITAR TABS FOR

SLASH'S "GOOD TO BE ALIVE"





Good To Be Alive
Written by SLASH/Gilby Clarke/Eric Dover
Originally Recorded by SLASH's Snakepit


Tabulature by David Knights (Thanks, David!)
And Another By Elliot Munoz (Thanks, Elliot!)
   Intro     W/distortion
  
-------------------------------------------------------------------------------|
-------------------------------------------------------------------------------| 
-6-6---6---6-6---6---5-5---5---5-5---5---4-4---4---4-4---4---3-3---3---3-3---3-| 
-8-8---8---8-8---8---7-7---7---7-7---7---6-6---6---6-6---6---5-5---5---5-5---5-| 
-8-8-8-8---8-8-8-8---7-7-7-7---7-7-7-7---6-6-6-6---6-6-6-6---5-5-5-5---5-5-5-5-| 
-6-6-8-6---6-6-8-6---5-5-7-5---5-5-7-5---4-4-6-4---4-4-6-4---3-3-5-3---3-5-5-3-| 
 
Verse   
x8 ------------------------------------------------------------------------| 
------------------------------------------------------------------------| 
-8-x-8-x-8-8-x-8---7-x-7-x-7-7-x-7---6-x-6-x-6-6-x-6---5-x-5-x-5-5-x-5--| 
-8-x-8-x-8-8-x-8---7-x-7-x-7-7-x-7---6-x-6-x-6-6-x-6---5-x-5-x-5-5-x-5--| 
-8-x-8-x-8-8-x-8---7-x-7-x-7-7-x-7---6-x-6-x-6-6-x-6---5-x-5-x-5-5-x-5--| 
-6-x-6-x-6-6-x-6---5-x-5-x-5-5-x-5---4-x-4-x-4-4-x-4---3-x-3-x-3-3-x-3--| 
 
Main Riff   
x8 ---------------------| 
---------------------| 
--------------3---3--| 
-5-5--3--2-2--3---3--| 
-5-5--3--2-2--1-0-1--| 
-3-3--1--0-0---------|  
 
---------------------------| 
---------------------------| 
---------------------------| 
-------Verse  x8-----------| 
---------------------------| 
---------------------------|  
 
---------------------------| 
---------------------------| 
---------------------------| 
--------Riff  x8-----------| 
---------------------------| 
---------------------------| 
  
Bridge  x3 
-----------------------------|
-----------------| 
-----------------------------|
-----------------| 
-----------------------------|
-----------------| 
-10-x-10--8--5-x-5--5--8--10-|
--8---7---6---5--| 
-10-x-10--8--5-x-5--5--8--10-|
--8---7---6---5--| 
-8--x-8---6--3-x-3--3--6--8--|
--6---5---4---3--|  
Solo 
         
B   B     B    B           B   B  B   B        B     B 
---------3--------------------------3--------6--3-------3-------------- 
-6-\-5---3------------------6-\-5---3--------6--3--3--6---3------------ 
-6-\-5-5---5--3---3---3-----6-\-5-5---5--3------------------5--3------- 
----------------5---5---5------------------5----------------------5---- 
----------------------------------------------------------------------- 
-----------------------------------------------------------------------     
B    B      B      B          H  P 
--------------------------------6-----------8--6---10--7--10--7-10-7--| 
-----6---8~~~-8--8--6---6--8--8---8--8---6----------------------------| 
-5/7---7--------------7----------------7------------------------------| 
----------------------------------------------------------------------| 
----------------------------------------------------------------------| 
----------------------------------------------------------------------| 
   
BR       H  P    B     R   H  P     B      B                           B 
-10------------------10--------------10~~~--10~~~-8------8--------------14--| 
-10--8----8-10-8--10----10--8-10-8-------------------10-----10/11-10-9------| 
--------9-------------------------------------------------------------------| 
----------------------------------------------------------------------------| 
----------------------------------------------------------------------------| 
----------------------------------------------------------------------------|  
 
---------------------------| 
---------------------------| 
---------------------------| 
------Main Riff x8---------| 
---------------------------| 
---------------------------|  
Backing Guitar Riff  
x8 ---------------------------------| 
--8-8-\-6-\-5-5-/-11-\-10-/-10---| 
--7-7-\-5-\-4-4-/-10-\-9--/-9----| 
--5-5-\-3-\-2-2-/-8--\-7--/-8----| 
---------------------------------| 
---------------------------------|  
(Bass only) Tap strings above pickups with pick getting closer to neck 
then slide 
--x-x-x--x---------------------| 
--x-x-x--x---------------------| 
--x-x-x--x---------------------| 
--x-x-x--x---------------------| 
-------------------------------| 
-------------------------------|  
Outro riff till end Guitar 1 
-3-x-3-3-x-3-5-3-5-3-3-x-3-3-x-3--| 
-3-x-3-3-x-3-5-3-5-3-3-x-3-3-x-3--| 
-3-x-3-3-x-3-5-3-5-3-3-x-3-3-x-3--| 
----------------------------------| 
----------------------------------| 
----------------------------------|  
Guitar 2 
-------------------------------------| 
-12--12-x-12-12-14-12-14-12--12-x-12-| 
-12--12-x-12-12-14-12-14-12--12-x-12-| 
-12--12-x-12-12-14-12-12-12--12-x-12-| 
-------------------------------------| 
-------------------------------------| 
x  = Mute string 
~  = Vibrato
\  = Slide Down 
/  = Slide Up 
BR = Bend and Release 
B  = Bend 
H  = Hammer on 
P  = Pull off  
 That's the riffs and solo.  Here's the intro from Stalker:  
I play it the guns n' roses very same tunning: half step down over  
the intro riff.                    
A.H.-| H   H       p GbR            hp 
|----------------|----------------|----------------|----------------| 
|----------------|----------------|----------------|----------------| 
|----------------|1212^^----------|----------------|----------------| 
|----------------|----------8-1010|10-810-8--108-7-|7-787-----------| 
|/9~~~~~~~~~~~~~~|------8-10------|--------10------|----------------| 
|----------------|----------------|----------------|----------------|                   
B |----------------|----------------|----------------|----------------| 
|----------------|13--------------|----------------|----------------| 
|----------------|--15~~~~--------|----------------|----------------| 
|----------------|----------------|----------------|----------------| 
|----------------|----------------|----------------|----------------| 
|----------------|----------------|----------------|----------------|  

Click on the picture of SLASH rockin out below to return to the SLASH Guitar Tabs Main Menu:

Guitar Tabs Page - Main Menu